"The Cave of Elijah" bass tab (in E harmonic minor)

A
G --------------------------------------9--7---------------------------------
D ----------------7--9--10--9-------9---------10--9--7----------------------
A -----7--9--10------------------------------------------10--9--7--6--7-----
E --------------------------------------------------------------------------7-

G --------------------------------------9--7---------------------------------
D ----------------7--9--10--9-------9---------10--9--7----------------------
A -----7--9--10------------------------------------------10--9--7--6--7-----
E ----------------------------------------------------------------------------

(Reprise)

B
G ---------9--12-------9--12--------11--14-------11--14-----------------
D -----10----------10-----------12-----------13--------------------------
A ------------------------------------------------------------------------
E ------------------------------------------------------------------------

G ----------12--16-------12---16---14--12--11--14--12--11--------------
D ------14-----------14--------------------------------------------------
A ------------------------------------------------------------------------
E ------------------------------------------------------------------------

C
G ---------9--12-------9--12-----------9----------9-------8--11-----8--11--
D -----10----------10-----------7--10------7--10-------9---------9---------
A ---------------------------------------------------------------------------
E ---------------------------------------------------------------------------

G ------14--12--11----12--11--9--
D ---------------------------------
A ---------------------------------
E ---------------------------------

(B reprise)

C2
G ---------9--12-------9--12-----------9----------9-------8--11-----8--11---
D -----10----------10-----------7--10------7--10-------9---------9---------9--
A ----------------------------------------------------------------------------
E ----------------------------------------------------------------------------

(A reprise to end)


©Egon "Ehom" Lundberg 2012
www.towerofstone.com

G ---------------------------------------------------------------------
D ---------------------------------------------------------------------
A ---------------------------------------------------------------------
E ---------------------------------------------------------------------