"Octabass" bass tab (in B minor)

A
G ---------------------------------------9--11--------12------11------
D -----9------9----9--11--12--9-----12---------12--------11------9---
A --------9------9-----------------------------------------------------
E ---------------------------------------------------------------------

B
G -----12--11--9---------------9--11----------------------------------
D -----------------12--11--12-----------------------------------------
A ---------------------------------------------------------------------
E ---------------------------------------------------------------------


(
A reprise)


C

G ---------9--11-----9------------------------------------------------
D -----12---------------12--11----------------------------------------
A ---------------------------------------------------------------------
E ---------------------------------------------------------------------


(
A + B reprise)


A2

G ---------------------------------------9--11--------12------14------
D -----9------9----9--11--12--9-----12---------12--------11------12--
A --------9------9-----------------------------------------------------
E ---------------------------------------------------------------------

D end
G -----12--11--9-------------------------------------------------------
D -----------------12--11-------9--------------------------------------
A --------------------------12-----------------------------------------
E ----------------------------------------------------------------------


©Egon "Ehom" Lundberg 2012
www.towerofstone.com

G ---------------------------------------------------------------------
D ---------------------------------------------------------------------
A ---------------------------------------------------------------------
E ---------------------------------------------------------------------