"Bass piece 2010-07-04" tab (in D harmonic minor)

A
G --------------------------14--12------------------------------------
D ----12------12--14--15------------15--14---------------------------
A --------12----------------------------------12----------------------
E ---------------------------------------------------------------------

G --------------------------14--12------------------------------------
D ----12------12--14--15------------15--14---12--14--15-------------
A --------12----------------------------------------------------------
E ---------------------------------------------------------------------

B
G -----15-----------------------15-------14-----------------------14-----
D ---------17--15--14--15--17------17-------15--14--12--14--15-----15--
A ------------------------------------------------------------------------
E ------------------------------------------------------------------------


G -----12---------------------------------12---14---12---14---15---14--
D ---------14---12---11---12---14---15---------------------------------
A -----------------------------------------------------------------------
E -----------------------------------------------------------------------

G -----15-----------------------15-------14-----------------------14-----
D ---------17--15--14--15--17------17-------15--14--12--14--15-----15--
A ------------------------------------------------------------------------
E ------------------------------------------------------------------------


G -----12---------------------------------12---14---12------------------
D ---------14---12---11---12---14---15------------------14---15---12--
A -----------------------------------------------------------------------
E -----------------------------------------------------------------------


©Egon "Ehom" Lundberg 2010-
www.towerofstone.com